  0
SECTION
  2
HEADER
  9
$ACADVER
  1
AC1014
  9
$HANDSEED
  5
FFFF
  9
$MEASUREMENT
 70
     1
  0
ENDSEC
  0
SECTION
  2
TABLES
  0
TABLE
  2
VPORT
  5
8
330
0
100
AcDbSymbolTable
 70
     4
  0
VPORT
  5
2E
330
8
100
AcDbSymbolTableRecord
100
AcDbViewportTableRecord
  2
*ACTIVE
 70
     0
 10
0.0
 20
0.0
 11
1.0
 21
1.0
 12
210.0
 22
148.5
 13
0.0
 23
0.0
 14
10.0
 24
10.0
 15
10.0
 25
10.0
 16
0.0
 26
0.0
 36
1.0
 17
0.0
 27
0.0
 37
0.0
 40
341.0
 41
1.24
 42
50.0
 43
0.0
 44
0.0
 50
0.0
 51
0.0
 71
     0
 72
   100
 73
     1
 74
     3
 75
     0
 76
     0
 77
     0
 78
     0
  0
ENDTAB
  0
TABLE
  2
LTYPE
  5
5
330
0
100
AcDbSymbolTable
 70
     1
  0
LTYPE
  5
14
330
5
100
AcDbSymbolTableRecord
100
AcDbLinetypeTableRecord
  2
BYBLOCK
 70
     0
  3

 72
    65
 73
     0
 40
0.0
  0
LTYPE
  5
15
330
5
100
AcDbSymbolTableRecord
100
AcDbLinetypeTableRecord
  2
BYLAYER
 70
     0
  3

 72
    65
 73
     0
 40
0.0
  0
LTYPE
  5
16
330
5
100
AcDbSymbolTableRecord
100
AcDbLinetypeTableRecord
  2
CONTINUOUS
 70
     0
  3
Solid line
 72
    65
 73
     0
 40
0.0
  0
ENDTAB
  0
TABLE
  2
LAYER
  5
2
100
AcDbSymbolTable
 70
2
  0
LAYER
  5
50
100
AcDbSymbolTableRecord
100
AcDbLayerTableRecord
  2
0
 70
0
  6
CONTINUOUS
  0
LAYER
  5
51
100
AcDbSymbolTableRecord
100
AcDbLayerTableRecord
  2
Layer_1
 70
0
  6
CONTINUOUS
  0
ENDTAB
  0
TABLE
  2
STYLE
  5
3
330
0
100
AcDbSymbolTable
 70
     1
  0
STYLE
  5
11
330
3
100
AcDbSymbolTableRecord
100
AcDbTextStyleTableRecord
  2
STANDARD
 70
     0
 40
0.0
 41
1.0
 50
0.0
 71
     0
 42
2.5
  3
txt
  4

  0
ENDTAB
  0
TABLE
  2
VIEW
  5
6
330
0
100
AcDbSymbolTable
 70
     0
  0
ENDTAB
  0
TABLE
  2
UCS
  5
7
330
0
100
AcDbSymbolTable
 70
     0
  0
ENDTAB
  0
TABLE
  2
APPID
  5
9
330
0
100
AcDbSymbolTable
 70
     2
  0
APPID
  5
12
330
9
100
AcDbSymbolTableRecord
100
AcDbRegAppTableRecord
  2
ACAD
 70
     0
  0
ENDTAB
  0
TABLE
  2
DIMSTYLE
  5
A
330
0
100
AcDbSymbolTable
 70
     1
  0
DIMSTYLE
105
27
330
A
100
AcDbSymbolTableRecord
100
AcDbDimStyleTableRecord
  2
ISO-25
 70
     0
  3

  4

  5

  6

  7

 40
1.0
 41
2.5
 42
0.625
 43
3.75
 44
1.25
 45
0.0
 46
0.0
 47
0.0
 48
0.0
140
2.5
141
2.5
142
0.0
143
0.03937007874016
144
1.0
145
0.0
146
1.0
147
0.625
 71
     0
 72
     0
 73
     0
 74
     0
 75
     0
 76
     0
 77
     1
 78
     8
170
     0
171
     3
172
     1
173
     0
174
     0
175
     0
176
     0
177
     0
178
     0
270
     2
271
     2
272
     2
273
     2
274
     3
340
11
275
     0
280
     0
281
     0
282
     0
283
     0
284
     8
285
     0
286
     0
287
     3
288
     0
  0
ENDTAB
  0
TABLE
  2
BLOCK_RECORD
  5
1
330
0
100
AcDbSymbolTable
 70
     1
  0
BLOCK_RECORD
  5
1F
330
1
100
AcDbSymbolTableRecord
100
AcDbBlockTableRecord
  2
*MODEL_SPACE
  0
BLOCK_RECORD
  5
1B
330
1
100
AcDbSymbolTableRecord
100
AcDbBlockTableRecord
  2
*PAPER_SPACE
  0
ENDTAB
  0
ENDSEC
  0
SECTION
  2
BLOCKS
  0
BLOCK
  5
20
330
1F
100
AcDbEntity
  8
0
100
AcDbBlockBegin
  2
*MODEL_SPACE
 70
     0
 10
0.0
 20
0.0
 30
0.0
  3
*MODEL_SPACE
  1

  0
ENDBLK
  5
21
330
1F
100
AcDbEntity
  8
0
100
AcDbBlockEnd
  0
BLOCK
  5
1C
330
1B
100
AcDbEntity
 67
     1
  8
0
100
AcDbBlockBegin
  2
*PAPER_SPACE
  1

  0
ENDBLK
  5
1D
330
1B
100
AcDbEntity
 67
     1
  8
0
100
AcDbBlockEnd
  0
ENDSEC
  0
SECTION
  2
ENTITIES
  0
LINE
  5
100
100
AcDbEntity
  8
Layer_1
 62
7
100
AcDbLine
 10
37.770653
 20
284.717257
 30
0.0
 11
37.770653
 21
279.651363
 31
0.0
  0
LINE
  5
101
100
AcDbEntity
  8
Layer_1
 62
7
100
AcDbLine
 10
37.770653
 20
279.651363
 30
0.0
 11
41.145924
 21
279.651363
 31
0.0
  0
LINE
  5
102
100
AcDbEntity
  8
Layer_1
 62
7
100
AcDbLine
 10
41.145924
 20
279.651363
 30
0.0
 11
41.145924
 21
281.345632
 31
0.0
  0
LINE
  5
103
100
AcDbEntity
  8
Layer_1
 62
7
100
AcDbLine
 10
41.145924
 20
281.345632
 30
0.0
 11
42.839817
 21
281.345632
 31
0.0
  0
LINE
  5
104
100
AcDbEntity
  8
Layer_1
 62
7
100
AcDbLine
 10
42.839817
 20
281.345632
 30
0.0
 11
42.839817
 21
284.717257
 31
0.0
  0
LINE
  5
105
100
AcDbEntity
  8
Layer_1
 62
7
100
AcDbLine
 10
42.839817
 20
284.717257
 30
0.0
 11
37.770653
 21
284.717257
 31
0.0
  0
LINE
  5
106
100
AcDbEntity
  8
Layer_1
 62
7
100
AcDbLine
 10
43.523778
 20
284.717257
 30
0.0
 11
43.523778
 21
281.345632
 31
0.0
  0
LINE
  5
107
100
AcDbEntity
  8
Layer_1
 62
7
100
AcDbLine
 10
43.523778
 20
281.345632
 30
0.0
 11
45.220377
 21
281.345632
 31
0.0
  0
LINE
  5
108
100
AcDbEntity
  8
Layer_1
 62
7
100
AcDbLine
 10
45.220377
 20
281.345632
 30
0.0
 11
45.220377
 21
279.651363
 31
0.0
  0
LINE
  5
109
100
AcDbEntity
  8
Layer_1
 62
7
100
AcDbLine
 10
45.220377
 20
279.651363
 30
0.0
 11
48.597114
 21
279.651363
 31
0.0
  0
LINE
  5
10a
100
AcDbEntity
  8
Layer_1
 62
7
100
AcDbLine
 10
48.597114
 20
279.651363
 30
0.0
 11
48.597114
 21
284.717257
 31
0.0
  0
LINE
  5
10b
100
AcDbEntity
  8
Layer_1
 62
7
100
AcDbLine
 10
48.597114
 20
284.717257
 30
0.0
 11
43.523778
 21
284.717257
 31
0.0
  0
LINE
  5
10c
100
AcDbEntity
  8
Layer_1
 62
7
100
AcDbLine
 10
46.248537
 20
278.966312
 30
0.0
 11
45.220377
 21
278.966312
 31
0.0
  0
LINE
  5
10d
100
AcDbEntity
  8
Layer_1
 62
7
100
AcDbLine
 10
45.220377
 20
278.966312
 30
0.0
 11
45.220377
 21
277.277681
 31
0.0
  0
LINE
  5
10e
100
AcDbEntity
  8
Layer_1
 62
7
100
AcDbLine
 10
45.220377
 20
277.277681
 30
0.0
 11
43.523778
 21
277.277681
 31
0.0
  0
LINE
  5
10f
100
AcDbEntity
  8
Layer_1
 62
7
100
AcDbLine
 10
43.523778
 20
277.277681
 30
0.0
 11
43.523778
 21
273.889782
 31
0.0
  0
LINE
  5
110
100
AcDbEntity
  8
Layer_1
 62
7
100
AcDbLine
 10
43.523778
 20
273.889782
 30
0.0
 11
48.597114
 21
273.889782
 31
0.0
  0
LINE
  5
111
100
AcDbEntity
  8
Layer_1
 62
7
100
AcDbLine
 10
48.597114
 20
273.889782
 30
0.0
 11
48.597114
 21
278.966312
 31
0.0
  0
LINE
  5
112
100
AcDbEntity
  8
Layer_1
 62
7
100
AcDbLine
 10
48.597114
 20
278.966312
 30
0.0
 11
46.248537
 21
278.966312
 31
0.0
  0
SPLINE
  5
113
100
AcDbEntity
  8
Layer_1
 62
7
100
AcDbSpline
 70
8
 71
3
 72
8
 73
4
 74
0
 40
0
 40
0
 40
0
 40
0
 40
1
 40
1
 40
1
 40
1
 10
18.034387
 20
276.153492
 30
0.0
 10
16.460464
 20
276.853014
 30
0.0
 10
15.522431
 20
277.123284
 30
0.0
 10
14.600335
 20
277.123284
 30
0.0
  0
SPLINE
  5
114
100
AcDbEntity
  8
Layer_1
 62
7
100
AcDbSpline
 70
8
 71
3
 72
8
 73
4
 74
0
 40
0
 40
0
 40
0
 40
0
 40
1
 40
1
 40
1
 40
1
 10
14.600335
 20
277.123284
 30
0.0
 10
13.630544
 20
277.123284
 30
0.0
 10
13.010506
 20
276.773523
 30
0.0
 10
13.010506
 20
276.232946
 30
0.0
  0
SPLINE
  5
115
100
AcDbEntity
  8
Layer_1
 62
7
100
AcDbSpline
 70
8
 71
3
 72
8
 73
4
 74
0
 40
0
 40
0
 40
0
 40
0
 40
1
 40
1
 40
1
 40
1
 10
13.010506
 20
276.232946
 30
0.0
 10
13.010506
 20
274.595392
 30
0.0
 10
18.527270
 20
275.056478
 30
0.0
 10
18.527270
 20
271.272661
 30
0.0
  0
SPLINE
  5
116
100
AcDbEntity
  8
Layer_1
 62
7
100
AcDbSpline
 70
8
 71
3
 72
8
 73
4
 74
0
 40
0
 40
0
 40
0
 40
0
 40
1
 40
1
 40
1
 40
1
 10
18.527270
 20
271.272661
 30
0.0
 10
18.527270
 20
269.189957
 30
0.0
 10
16.778428
 20
267.981733
 30
0.0
 10
14.361862
 20
267.981733
 30
0.0
  0
SPLINE
  5
117
100
AcDbEntity
  8
Layer_1
 62
7
100
AcDbSpline
 70
8
 71
3
 72
8
 73
4
 74
0
 40
0
 40
0
 40
0
 40
0
 40
1
 40
1
 40
1
 40
1
 10
14.361862
 20
267.981733
 30
0.0
 10
12.469966
 20
267.981733
 30
0.0
 10
11.531952
 20
268.474544
 30
0.0
 10
10.450873
 20
269.031016
 30
0.0
  0
LINE
  5
118
100
AcDbEntity
  8
Layer_1
 62
7
100
AcDbLine
 10
10.450873
 20
269.031016
 30
0.0
 11
10.450873
 21
271.368061
 31
0.0
  0
SPLINE
  5
119
100
AcDbEntity
  8
Layer_1
 62
7
100
AcDbSpline
 70
8
 71
3
 72
8
 73
4
 74
0
 40
0
 40
0
 40
0
 40
0
 40
1
 40
1
 40
1
 40
1
 10
10.450873
 20
271.368061
 30
0.0
 10
12.008910
 20
270.334636
 30
0.0
 10
12.962803
 20
269.969011
 30
0.0
 10
14.155185
 20
269.969011
 30
0.0
  0
SPLINE
  5
11a
100
AcDbEntity
  8
Layer_1
 62
7
100
AcDbSpline
 70
8
 71
3
 72
8
 73
4
 74
0
 40
0
 40
0
 40
0
 40
0
 40
1
 40
1
 40
1
 40
1
 10
14.155185
 20
269.969011
 30
0.0
 10
15.188606
 20
269.969011
 30
0.0
 10
15.745044
 20
270.334636
 30
0.0
 10
15.745044
 20
270.970606
 30
0.0
  0
SPLINE
  5
11b
100
AcDbEntity
  8
Layer_1
 62
7
100
AcDbSpline
 70
8
 71
3
 72
8
 73
4
 74
0
 40
0
 40
0
 40
0
 40
0
 40
1
 40
1
 40
1
 40
1
 10
15.745044
 20
270.970606
 30
0.0
 10
15.745044
 20
272.751199
 30
0.0
 10
10.228287
 20
272.099372
 30
0.0
 10
10.228287
 20
275.994473
 30
0.0
  0
SPLINE
  5
11c
100
AcDbEntity
  8
Layer_1
 62
7
100
AcDbSpline
 70
8
 71
3
 72
8
 73
4
 74
0
 40
0
 40
0
 40
0
 40
0
 40
1
 40
1
 40
1
 40
1
 10
10.228287
 20
275.994473
 30
0.0
 10
10.228287
 20
277.870500
 30
0.0
 10
11.849924
 20
279.110561
 30
0.0
 10
14.361862
 20
279.110561
 30
0.0
  0
SPLINE
  5
11d
100
AcDbEntity
  8
Layer_1
 62
7
100
AcDbSpline
 70
8
 71
3
 72
8
 73
4
 74
0
 40
0
 40
0
 40
0
 40
0
 40
1
 40
1
 40
1
 40
1
 10
14.361862
 20
279.110561
 30
0.0
 10
15.570126
 20
279.110561
 30
0.0
 10
16.667141
 20
278.856189
 30
0.0
 10
18.034387
 20
278.267955
 30
0.0
  0
LINE
  5
11e
100
AcDbEntity
  8
Layer_1
 62
7
100
AcDbLine
 10
18.034387
 20
278.267955
 30
0.0
 11
18.034387
 21
276.153492
 31
0.0
  0
LINE
  5
11f
100
AcDbEntity
  8
Layer_1
 62
7
100
AcDbLine
 10
40.482370
 20
278.967477
 30
0.0
 11
42.835344
 21
278.967477
 31
0.0
  0
LINE
  5
120
100
AcDbEntity
  8
Layer_1
 62
7
100
AcDbLine
 10
42.835344
 20
278.967477
 30
0.0
 11
42.835344
 21
268.124789
 31
0.0
  0
LINE
  5
121
100
AcDbEntity
  8
Layer_1
 62
7
100
AcDbLine
 10
42.835344
 20
268.124789
 30
0.0
 11
40.132610
 21
268.124789
 31
0.0
  0
LINE
  5
122
100
AcDbEntity
  8
Layer_1
 62
7
100
AcDbLine
 10
40.132610
 20
268.124789
 30
0.0
 11
40.132610
 21
274.897496
 31
0.0
  0
LINE
  5
123
100
AcDbEntity
  8
Layer_1
 62
7
100
AcDbLine
 10
40.132610
 20
274.897496
 30
0.0
 11
37.207300
 21
271.495247
 31
0.0
  0
LINE
  5
124
100
AcDbEntity
  8
Layer_1
 62
7
100
AcDbLine
 10
37.207300
 20
271.495247
 30
0.0
 11
36.793946
 21
271.495247
 31
0.0
  0
LINE
  5
125
100
AcDbEntity
  8
Layer_1
 62
7
100
AcDbLine
 10
36.793946
 20
271.495247
 30
0.0
 11
33.868637
 21
274.897496
 31
0.0
  0
LINE
  5
126
100
AcDbEntity
  8
Layer_1
 62
7
100
AcDbLine
 10
33.868637
 20
274.897496
 30
0.0
 11
33.868637
 21
268.124789
 31
0.0
  0
LINE
  5
127
100
AcDbEntity
  8
Layer_1
 62
7
100
AcDbLine
 10
33.868637
 20
268.124789
 30
0.0
 11
31.165940
 21
268.124789
 31
0.0
  0
LINE
  5
128
100
AcDbEntity
  8
Layer_1
 62
7
100
AcDbLine
 10
31.165940
 20
268.124789
 30
0.0
 11
31.165940
 21
278.967477
 31
0.0
  0
LINE
  5
129
100
AcDbEntity
  8
Layer_1
 62
7
100
AcDbLine
 10
31.165940
 20
278.967477
 30
0.0
 11
33.518913
 21
278.967477
 31
0.0
  0
LINE
  5
12a
100
AcDbEntity
  8
Layer_1
 62
7
100
AcDbLine
 10
33.518913
 20
278.967477
 30
0.0
 11
37.000623
 21
274.945190
 31
0.0
  0
LINE
  5
12b
100
AcDbEntity
  8
Layer_1
 62
7
100
AcDbLine
 10
37.000623
 20
274.945190
 30
0.0
 11
40.482370
 21
278.967477
 31
0.0
  0
LINE
  5
12c
100
AcDbEntity
  8
Layer_1
 62
7
100
AcDbLine
 10
25.887919
 20
278.967477
 30
0.0
 11
22.755970
 21
278.967477
 31
0.0
  0
LINE
  5
12d
100
AcDbEntity
  8
Layer_1
 62
7
100
AcDbLine
 10
22.755970
 20
278.967477
 30
0.0
 11
18.383923
 21
268.124789
 31
0.0
  0
LINE
  5
12e
100
AcDbEntity
  8
Layer_1
 62
7
100
AcDbLine
 10
18.383923
 20
268.124789
 30
0.0
 11
21.245602
 21
268.124789
 31
0.0
  0
LINE
  5
12f
100
AcDbEntity
  8
Layer_1
 62
7
100
AcDbLine
 10
21.245602
 20
268.124789
 30
0.0
 11
22.056411
 21
270.271080
 31
0.0
  0
LINE
  5
130
100
AcDbEntity
  8
Layer_1
 62
7
100
AcDbLine
 10
22.056411
 20
270.271080
 30
0.0
 11
24.034292
 21
270.271080
 31
0.0
  0
LINE
  5
131
100
AcDbEntity
  8
Layer_1
 62
7
100
AcDbLine
 10
24.034292
 20
270.271080
 30
0.0
 11
24.034292
 21
272.163002
 31
0.0
  0
LINE
  5
132
100
AcDbEntity
  8
Layer_1
 62
7
100
AcDbLine
 10
24.034292
 20
272.163002
 30
0.0
 11
22.771868
 21
272.163002
 31
0.0
  0
LINE
  5
133
100
AcDbEntity
  8
Layer_1
 62
7
100
AcDbLine
 10
22.771868
 20
272.163002
 30
0.0
 11
24.361690
 21
276.376030
 31
0.0
  0
LINE
  5
134
100
AcDbEntity
  8
Layer_1
 62
7
100
AcDbLine
 10
24.361690
 20
276.376030
 30
0.0
 11
26.110532
 21
272.163002
 31
0.0
  0
LINE
  5
135
100
AcDbEntity
  8
Layer_1
 62
7
100
AcDbLine
 10
26.110532
 20
272.163002
 30
0.0
 11
24.673566
 21
272.163002
 31
0.0
  0
LINE
  5
136
100
AcDbEntity
  8
Layer_1
 62
7
100
AcDbLine
 10
24.673566
 20
272.163002
 30
0.0
 11
24.673566
 21
270.271080
 31
0.0
  0
LINE
  5
137
100
AcDbEntity
  8
Layer_1
 62
7
100
AcDbLine
 10
24.673566
 20
270.271080
 30
0.0
 11
26.905443
 21
270.271080
 31
0.0
  0
LINE
  5
138
100
AcDbEntity
  8
Layer_1
 62
7
100
AcDbLine
 10
26.905443
 20
270.271080
 30
0.0
 11
27.795743
 21
268.124789
 31
0.0
  0
LINE
  5
139
100
AcDbEntity
  8
Layer_1
 62
7
100
AcDbLine
 10
27.795743
 20
268.124789
 30
0.0
 11
30.705154
 21
268.124789
 31
0.0
  0
LINE
  5
13a
100
AcDbEntity
  8
Layer_1
 62
7
100
AcDbLine
 10
30.705154
 20
268.124789
 30
0.0
 11
25.887919
 21
278.967477
 31
0.0
  0
LINE
  5
13b
100
AcDbEntity
  8
Layer_1
 62
7
100
AcDbLine
 10
11.094376
 20
282.548109
 30
0.0
 11
11.612673
 21
282.548109
 31
0.0
  0
SPLINE
  5
13c
100
AcDbEntity
  8
Layer_1
 62
7
100
AcDbSpline
 70
8
 71
3
 72
8
 73
4
 74
0
 40
0
 40
0
 40
0
 40
0
 40
1
 40
1
 40
1
 40
1
 10
11.612673
 20
282.548109
 30
0.0
 10
12.404956
 20
282.548109
 30
0.0
 10
12.841800
 20
282.873928
 30
0.0
 10
12.841800
 20
283.451451
 30
0.0
  0
SPLINE
  5
13d
100
AcDbEntity
  8
Layer_1
 62
7
100
AcDbSpline
 70
8
 71
3
 72
8
 73
4
 74
0
 40
0
 40
0
 40
0
 40
0
 40
1
 40
1
 40
1
 40
1
 10
12.841800
 20
283.451451
 30
0.0
 10
12.841800
 20
284.029011
 30
0.0
 10
12.397541
 20
284.377005
 30
0.0
 10
11.664498
 20
284.377005
 30
0.0
  0
LINE
  5
13e
100
AcDbEntity
  8
Layer_1
 62
7
100
AcDbLine
 10
11.664498
 20
284.377005
 30
0.0
 11
11.346131
 21
284.377005
 31
0.0
  0
LINE
  5
13f
100
AcDbEntity
  8
Layer_1
 62
7
100
AcDbLine
 10
11.346131
 20
284.377005
 30
0.0
 11
11.094376
 21
282.548109
 31
0.0
  0
LINE
  5
140
100
AcDbEntity
  8
Layer_1
 62
7
100
AcDbLine
 10
11.094376
 20
282.548109
 30
0.0
 11
11.094376
 21
282.548109
 31
0.0
  0
LINE
  5
141
100
AcDbEntity
  8
Layer_1
 62
7
100
AcDbLine
 10
10.731566
 20
279.978799
 30
0.0
 11
11.708938
 21
279.978799
 31
0.0
  0
SPLINE
  5
142
100
AcDbEntity
  8
Layer_1
 62
7
100
AcDbSpline
 70
8
 71
3
 72
8
 73
4
 74
0
 40
0
 40
0
 40
0
 40
0
 40
1
 40
1
 40
1
 40
1
 10
11.708938
 20
279.978799
 30
0.0
 10
12.893625
 20
279.978799
 30
0.0
 10
13.256432
 20
280.585976
 30
0.0
 10
13.256432
 20
281.104265
 30
0.0
  0
SPLINE
  5
143
100
AcDbEntity
  8
Layer_1
 62
7
100
AcDbSpline
 70
8
 71
3
 72
8
 73
4
 74
0
 40
0
 40
0
 40
0
 40
0
 40
1
 40
1
 40
1
 40
1
 10
13.256432
 20
281.104265
 30
0.0
 10
13.256432
 20
281.763271
 30
0.0
 10
12.715953
 20
282.222327
 30
0.0
 10
11.945866
 20
282.222327
 30
0.0
  0
LINE
  5
144
100
AcDbEntity
  8
Layer_1
 62
7
100
AcDbLine
 10
11.945866
 20
282.222327
 30
0.0
 11
11.049932
 21
282.222327
 31
0.0
  0
LINE
  5
145
100
AcDbEntity
  8
Layer_1
 62
7
100
AcDbLine
 10
11.049932
 20
282.222327
 30
0.0
 11
10.731566
 21
279.978799
 31
0.0
  0
LINE
  5
146
100
AcDbEntity
  8
Layer_1
 62
7
100
AcDbLine
 10
10.731566
 20
279.978799
 30
0.0
 11
10.731566
 21
279.978799
 31
0.0
  0
LINE
  5
147
100
AcDbEntity
  8
Layer_1
 62
7
100
AcDbLine
 10
11.049932
 20
284.702787
 30
0.0
 11
11.538650
 21
284.702787
 31
0.0
  0
SPLINE
  5
148
100
AcDbEntity
  8
Layer_1
 62
7
100
AcDbSpline
 70
8
 71
3
 72
8
 73
4
 74
0
 40
0
 40
0
 40
0
 40
0
 40
1
 40
1
 40
1
 40
1
 10
11.538650
 20
284.702787
 30
0.0
 10
12.730734
 20
284.702787
 30
0.0
 10
13.226819
 20
284.065994
 30
0.0
 10
13.226819
 20
283.444047
 30
0.0
  0
SPLINE
  5
149
100
AcDbEntity
  8
Layer_1
 62
7
100
AcDbSpline
 70
8
 71
3
 72
8
 73
4
 74
0
 40
0
 40
0
 40
0
 40
0
 40
1
 40
1
 40
1
 40
1
 10
13.226819
 20
283.444047
 30
0.0
 10
13.226819
 20
283.022011
 30
0.0
 10
12.982494
 20
282.666575
 30
0.0
 10
12.553016
 20
282.444451
 30
0.0
  0
SPLINE
  5
14a
100
AcDbEntity
  8
Layer_1
 62
7
100
AcDbSpline
 70
8
 71
3
 72
8
 73
4
 74
0
 40
0
 40
0
 40
0
 40
0
 40
1
 40
1
 40
1
 40
1
 10
12.553016
 20
282.444451
 30
0.0
 10
13.241650
 20
282.251944
 30
0.0
 10
13.641469
 20
281.763271
 30
0.0
 10
13.641469
 20
281.119073
 30
0.0
  0
SPLINE
  5
14b
100
AcDbEntity
  8
Layer_1
 62
7
100
AcDbSpline
 70
8
 71
3
 72
8
 73
4
 74
0
 40
0
 40
0
 40
0
 40
0
 40
1
 40
1
 40
1
 40
1
 10
13.641469
 20
281.119073
 30
0.0
 10
13.641469
 20
280.252752
 30
0.0
 10
12.886214
 20
279.653017
 30
0.0
 10
11.753351
 20
279.653017
 30
0.0
  0
LINE
  5
14c
100
AcDbEntity
  8
Layer_1
 62
7
100
AcDbLine
 10
11.753351
 20
279.653017
 30
0.0
 11
10.339132
 21
279.653017
 31
0.0
  0
LINE
  5
14d
100
AcDbEntity
  8
Layer_1
 62
7
100
AcDbLine
 10
10.339132
 20
279.653017
 30
0.0
 11
11.049932
 21
284.702787
 31
0.0
  0
SPLINE
  5
14e
100
AcDbEntity
  8
Layer_1
 62
7
100
AcDbSpline
 70
8
 71
3
 72
8
 73
4
 74
0
 40
0
 40
0
 40
0
 40
0
 40
1
 40
1
 40
1
 40
1
 10
16.487525
 20
281.674421
 30
0.0
 10
16.517141
 20
282.363006
 30
0.0
 10
16.146934
 20
282.740616
 30
0.0
 10
15.621203
 20
282.740616
 30
0.0
  0
SPLINE
  5
14f
100
AcDbEntity
  8
Layer_1
 62
7
100
AcDbSpline
 70
8
 71
3
 72
8
 73
4
 74
0
 40
0
 40
0
 40
0
 40
0
 40
1
 40
1
 40
1
 40
1
 10
15.621203
 20
282.740616
 30
0.0
 10
15.102914
 20
282.740616
 30
0.0
 10
14.591991
 20
282.259348
 30
0.0
 10
14.503141
 20
281.674421
 30
0.0
  0
LINE
  5
150
100
AcDbEntity
  8
Layer_1
 62
7
100
AcDbLine
 10
14.503141
 20
281.674421
 30
0.0
 11
16.487525
 21
281.674421
 31
0.0
  0
LINE
  5
151
100
AcDbEntity
  8
Layer_1
 62
7
100
AcDbLine
 10
16.487525
 20
281.674421
 30
0.0
 11
16.487525
 21
281.674421
 31
0.0
  0
SPLINE
  5
152
100
AcDbEntity
  8
Layer_1
 62
7
100
AcDbSpline
 70
8
 71
3
 72
8
 73
4
 74
0
 40
0
 40
0
 40
0
 40
0
 40
1
 40
1
 40
1
 40
1
 10
16.605991
 20
279.956587
 30
0.0
 10
16.317230
 20
279.734463
 30
0.0
 10
15.946985
 20
279.586380
 30
0.0
 10
15.561970
 20
279.586380
 30
0.0
  0
SPLINE
  5
153
100
AcDbEntity
  8
Layer_1
 62
7
100
AcDbSpline
 70
8
 71
3
 72
8
 73
4
 74
0
 40
0
 40
0
 40
0
 40
0
 40
1
 40
1
 40
1
 40
1
 10
15.561970
 20
279.586380
 30
0.0
 10
14.673437
 20
279.586380
 30
0.0
 10
14.088510
 20
280.223136
 30
0.0
 10
14.088510
 20
281.185711
 30
0.0
  0
SPLINE
  5
154
100
AcDbEntity
  8
Layer_1
 62
7
100
AcDbSpline
 70
8
 71
3
 72
8
 73
4
 74
0
 40
0
 40
0
 40
0
 40
0
 40
1
 40
1
 40
1
 40
1
 10
14.088510
 20
281.185711
 30
0.0
 10
14.088510
 20
282.229731
 30
0.0
 10
14.762324
 20
283.044224
 30
0.0
 10
15.628645
 20
283.044224
 30
0.0
  0
SPLINE
  5
155
100
AcDbEntity
  8
Layer_1
 62
7
100
AcDbSpline
 70
8
 71
3
 72
8
 73
4
 74
0
 40
0
 40
0
 40
0
 40
0
 40
1
 40
1
 40
1
 40
1
 10
15.628645
 20
283.044224
 30
0.0
 10
16.339442
 20
283.044224
 30
0.0
 10
16.813307
 20
282.518492
 30
0.0
 10
16.813307
 20
281.637400
 30
0.0
  0
SPLINE
  5
156
100
AcDbEntity
  8
Layer_1
 62
7
100
AcDbSpline
 70
8
 71
3
 72
8
 73
4
 74
0
 40
0
 40
0
 40
0
 40
0
 40
1
 40
1
 40
1
 40
1
 10
16.813307
 20
281.637400
 30
0.0
 10
16.813307
 20
281.533742
 30
0.0
 10
16.805902
 20
281.459664
 30
0.0
 10
16.798536
 20
281.385622
 30
0.0
  0
LINE
  5
157
100
AcDbEntity
  8
Layer_1
 62
7
100
AcDbLine
 10
16.798536
 20
281.385622
 30
0.0
 11
14.451313
 21
281.385622
 31
0.0
  0
SPLINE
  5
158
100
AcDbEntity
  8
Layer_1
 62
7
100
AcDbSpline
 70
8
 71
3
 72
8
 73
4
 74
0
 40
0
 40
0
 40
0
 40
0
 40
1
 40
1
 40
1
 40
1
 10
14.451313
 20
281.385622
 30
0.0
 10
14.443908
 20
281.318985
 30
0.0
 10
14.436504
 20
281.244944
 30
0.0
 10
14.436504
 20
281.170902
 30
0.0
  0
SPLINE
  5
159
100
AcDbEntity
  8
Layer_1
 62
7
100
AcDbSpline
 70
8
 71
3
 72
8
 73
4
 74
0
 40
0
 40
0
 40
0
 40
0
 40
1
 40
1
 40
1
 40
1
 10
14.436504
 20
281.170902
 30
0.0
 10
14.436504
 20
280.578572
 30
0.0
 10
14.799307
 20
279.889949
 30
0.0
 10
15.569374
 20
279.889949
 30
0.0
  0
SPLINE
  5
15a
100
AcDbEntity
  8
Layer_1
 62
7
100
AcDbSpline
 70
8
 71
3
 72
8
 73
4
 74
0
 40
0
 40
0
 40
0
 40
0
 40
1
 40
1
 40
1
 40
1
 10
15.569374
 20
279.889949
 30
0.0
 10
15.910002
 20
279.889949
 30
0.0
 10
16.280171
 20
280.038032
 30
0.0
 10
16.605991
 20
280.304581
 30
0.0
  0
LINE
  5
15b
100
AcDbEntity
  8
Layer_1
 62
7
100
AcDbLine
 10
16.605991
 20
280.304581
 30
0.0
 11
16.605991
 21
279.956587
 31
0.0
  0
LINE
  5
15c
100
AcDbEntity
  8
Layer_1
 62
7
100
AcDbLine
 10
17.438937
 20
279.653017
 30
0.0
 11
17.113118
 21
279.653017
 31
0.0
  0
LINE
  5
15d
100
AcDbEntity
  8
Layer_1
 62
7
100
AcDbLine
 10
17.113118
 20
279.653017
 30
0.0
 11
17.823952
 21
284.702787
 31
0.0
  0
LINE
  5
15e
100
AcDbEntity
  8
Layer_1
 62
7
100
AcDbLine
 10
17.823952
 20
284.702787
 30
0.0
 11
18.149734
 21
284.702787
 31
0.0
  0
LINE
  5
15f
100
AcDbEntity
  8
Layer_1
 62
7
100
AcDbLine
 10
18.149734
 20
284.702787
 30
0.0
 11
17.438937
 21
279.653017
 31
0.0
  0
LINE
  5
160
100
AcDbEntity
  8
Layer_1
 62
7
100
AcDbLine
 10
18.526481
 20
279.653017
 30
0.0
 11
18.200661
 21
279.653017
 31
0.0
  0
LINE
  5
161
100
AcDbEntity
  8
Layer_1
 62
7
100
AcDbLine
 10
18.200661
 20
279.653017
 30
0.0
 11
18.911496
 21
284.702787
 31
0.0
  0
LINE
  5
162
100
AcDbEntity
  8
Layer_1
 62
7
100
AcDbLine
 10
18.911496
 20
284.702787
 30
0.0
 11
19.237277
 21
284.702787
 31
0.0
  0
LINE
  5
163
100
AcDbEntity
  8
Layer_1
 62
7
100
AcDbLine
 10
19.237277
 20
284.702787
 30
0.0
 11
18.526481
 21
279.653017
 31
0.0
  0
LINE
  5
164
100
AcDbEntity
  8
Layer_1
 62
7
100
AcDbLine
 10
20.198236
 20
283.866120
 30
0.0
 11
19.872454
 21
283.866120
 31
0.0
  0
LINE
  5
165
100
AcDbEntity
  8
Layer_1
 62
7
100
AcDbLine
 10
19.872454
 20
283.866120
 30
0.0
 11
19.953900
 21
284.414026
 31
0.0
  0
LINE
  5
166
100
AcDbEntity
  8
Layer_1
 62
7
100
AcDbLine
 10
19.953900
 20
284.414026
 30
0.0
 11
20.279682
 21
284.414026
 31
0.0
  0
LINE
  5
167
100
AcDbEntity
  8
Layer_1
 62
7
100
AcDbLine
 10
20.279682
 20
284.414026
 30
0.0
 11
20.198236
 21
283.866120
 31
0.0
  0
LINE
  5
168
100
AcDbEntity
  8
Layer_1
 62
7
100
AcDbLine
 10
20.198236
 20
283.866120
 30
0.0
 11
20.198236
 21
283.866120
 31
0.0
  0
LINE
  5
169
100
AcDbEntity
  8
Layer_1
 62
7
100
AcDbLine
 10
19.620676
 20
279.653017
 30
0.0
 11
19.294894
 21
279.653017
 31
0.0
  0
LINE
  5
16a
100
AcDbEntity
  8
Layer_1
 62
7
100
AcDbLine
 10
19.294894
 20
279.653017
 30
0.0
 11
19.761392
 21
282.977549
 31
0.0
  0
LINE
  5
16b
100
AcDbEntity
  8
Layer_1
 62
7
100
AcDbLine
 10
19.761392
 20
282.977549
 30
0.0
 11
20.087174
 21
282.977549
 31
0.0
  0
LINE
  5
16c
100
AcDbEntity
  8
Layer_1
 62
7
100
AcDbLine
 10
20.087174
 20
282.977549
 30
0.0
 11
19.620676
 21
279.653017
 31
0.0
  0
LINE
  5
16d
100
AcDbEntity
  8
Layer_1
 62
7
100
AcDbLine
 10
21.082147
 20
282.429643
 30
0.0
 11
21.096993
 21
282.414835
 31
0.0
  0
SPLINE
  5
16e
100
AcDbEntity
  8
Layer_1
 62
7
100
AcDbSpline
 70
8
 71
3
 72
8
 73
4
 74
0
 40
0
 40
0
 40
0
 40
0
 40
1
 40
1
 40
1
 40
1
 10
21.096993
 20
282.414835
 30
0.0
 10
21.437546
 20
282.755425
 30
0.0
 10
21.859619
 20
283.044224
 30
0.0
 10
22.363100
 20
283.044224
 30
0.0
  0
SPLINE
  5
16f
100
AcDbEntity
  8
Layer_1
 62
7
100
AcDbSpline
 70
8
 71
3
 72
8
 73
4
 74
0
 40
0
 40
0
 40
0
 40
0
 40
1
 40
1
 40
1
 40
1
 10
22.363100
 20
283.044224
 30
0.0
 10
22.918448
 20
283.044224
 30
0.0
 10
23.266442
 20
282.533301
 30
0.0
 10
23.184997
 20
281.933528
 30
0.0
  0
LINE
  5
170
100
AcDbEntity
  8
Layer_1
 62
7
100
AcDbLine
 10
23.184997
 20
281.933528
 30
0.0
 11
22.866619
 21
279.653017
 31
0.0
  0
LINE
  5
171
100
AcDbEntity
  8
Layer_1
 62
7
100
AcDbLine
 10
22.866619
 20
279.653017
 30
0.0
 11
22.540837
 21
279.653017
 31
0.0
  0
LINE
  5
172
100
AcDbEntity
  8
Layer_1
 62
7
100
AcDbLine
 10
22.540837
 20
279.653017
 30
0.0
 11
22.851811
 21
281.889141
 31
0.0
  0
SPLINE
  5
173
100
AcDbEntity
  8
Layer_1
 62
7
100
AcDbSpline
 70
8
 71
3
 72
8
 73
4
 74
0
 40
0
 40
0
 40
0
 40
0
 40
1
 40
1
 40
1
 40
1
 10
22.851811
 20
281.889141
 30
0.0
 10
22.933256
 20
282.474105
 30
0.0
 10
22.659265
 20
282.740616
 30
0.0
 10
22.274250
 20
282.740616
 30
0.0
  0
SPLINE
  5
174
100
AcDbEntity
  8
Layer_1
 62
7
100
AcDbSpline
 70
8
 71
3
 72
8
 73
4
 74
0
 40
0
 40
0
 40
0
 40
0
 40
1
 40
1
 40
1
 40
1
 10
22.274250
 20
282.740616
 30
0.0
 10
21.867023
 20
282.740616
 30
0.0
 10
21.489375
 20
282.496280
 30
0.0
 10
21.022914
 20
282.015011
 30
0.0
  0
LINE
  5
175
100
AcDbEntity
  8
Layer_1
 62
7
100
AcDbLine
 10
21.022914
 20
282.015011
 30
0.0
 11
20.689728
 21
279.653017
 31
0.0
  0
LINE
  5
176
100
AcDbEntity
  8
Layer_1
 62
7
100
AcDbLine
 10
20.689728
 20
279.653017
 30
0.0
 11
20.363946
 21
279.653017
 31
0.0
  0
LINE
  5
177
100
AcDbEntity
  8
Layer_1
 62
7
100
AcDbLine
 10
20.363946
 20
279.653017
 30
0.0
 11
20.830407
 21
282.977549
 31
0.0
  0
LINE
  5
178
100
AcDbEntity
  8
Layer_1
 62
7
100
AcDbLine
 10
20.830407
 20
282.977549
 30
0.0
 11
21.156189
 21
282.977549
 31
0.0
  0
LINE
  5
179
100
AcDbEntity
  8
Layer_1
 62
7
100
AcDbLine
 10
21.156189
 20
282.977549
 30
0.0
 11
21.082147
 21
282.429643
 31
0.0
  0
LINE
  5
17a
100
AcDbEntity
  8
Layer_1
 62
7
100
AcDbLine
 10
26.617508
 20
282.836908
 30
0.0
 11
23.870537
 21
279.941778
 31
0.0
  0
LINE
  5
17b
100
AcDbEntity
  8
Layer_1
 62
7
100
AcDbLine
 10
23.870537
 20
279.941778
 30
0.0
 11
26.195473
 21
279.941778
 31
0.0
  0
LINE
  5
17c
100
AcDbEntity
  8
Layer_1
 62
7
100
AcDbLine
 10
26.195473
 20
279.941778
 30
0.0
 11
26.151048
 21
279.653017
 31
0.0
  0
LINE
  5
17d
100
AcDbEntity
  8
Layer_1
 62
7
100
AcDbLine
 10
26.151048
 20
279.653017
 30
0.0
 11
23.255956
 21
279.653017
 31
0.0
  0
LINE
  5
17e
100
AcDbEntity
  8
Layer_1
 62
7
100
AcDbLine
 10
23.255956
 20
279.653017
 30
0.0
 11
23.255956
 21
279.786292
 31
0.0
  0
LINE
  5
17f
100
AcDbEntity
  8
Layer_1
 62
7
100
AcDbLine
 10
23.255956
 20
279.786292
 30
0.0
 11
26.039986
 21
282.688787
 31
0.0
  0
LINE
  5
180
100
AcDbEntity
  8
Layer_1
 62
7
100
AcDbLine
 10
26.039986
 20
282.688787
 30
0.0
 11
23.863095
 21
282.688787
 31
0.0
  0
LINE
  5
181
100
AcDbEntity
  8
Layer_1
 62
7
100
AcDbLine
 10
23.863095
 20
282.688787
 30
0.0
 11
23.907520
 21
282.977549
 31
0.0
  0
LINE
  5
182
100
AcDbEntity
  8
Layer_1
 62
7
100
AcDbLine
 10
23.907520
 20
282.977549
 30
0.0
 11
26.617508
 21
282.977549
 31
0.0
  0
LINE
  5
183
100
AcDbEntity
  8
Layer_1
 62
7
100
AcDbLine
 10
26.617508
 20
282.977549
 30
0.0
 11
26.617508
 21
282.836908
 31
0.0
  0
SPLINE
  5
184
100
AcDbEntity
  8
Layer_1
 62
7
100
AcDbSpline
 70
8
 71
3
 72
8
 73
4
 74
0
 40
0
 40
0
 40
0
 40
0
 40
1
 40
1
 40
1
 40
1
 10
28.024143
 20
282.740616
 30
0.0
 10
27.224497
 20
282.740616
 30
0.0
 10
26.824636
 20
281.859524
 30
0.0
 10
26.824636
 20
280.978395
 30
0.0
  0
SPLINE
  5
185
100
AcDbEntity
  8
Layer_1
 62
7
100
AcDbSpline
 70
8
 71
3
 72
8
 73
4
 74
0
 40
0
 40
0
 40
0
 40
0
 40
1
 40
1
 40
1
 40
1
 10
26.824636
 20
280.978395
 30
0.0
 10
26.824636
 20
280.304581
 30
0.0
 10
27.128206
 20
279.889949
 30
0.0
 10
27.609512
 20
279.889949
 30
0.0
  0
SPLINE
  5
186
100
AcDbEntity
  8
Layer_1
 62
7
100
AcDbSpline
 70
8
 71
3
 72
8
 73
4
 74
0
 40
0
 40
0
 40
0
 40
0
 40
1
 40
1
 40
1
 40
1
 10
27.609512
 20
279.889949
 30
0.0
 10
28.305538
 20
279.889949
 30
0.0
 10
28.860848
 20
280.674825
 30
0.0
 10
28.860848
 20
281.652209
 30
0.0
  0
SPLINE
  5
187
100
AcDbEntity
  8
Layer_1
 62
7
100
AcDbSpline
 70
8
 71
3
 72
8
 73
4
 74
0
 40
0
 40
0
 40
0
 40
0
 40
1
 40
1
 40
1
 40
1
 10
28.860848
 20
281.652209
 30
0.0
 10
28.860848
 20
282.318581
 30
0.0
 10
28.535066
 20
282.740616
 30
0.0
 10
28.024143
 20
282.740616
 30
0.0
  0
LINE
  5
188
100
AcDbEntity
  8
Layer_1
 62
7
100
AcDbLine
 10
28.024143
 20
282.740616
 30
0.0
 11
28.024143
 21
282.740616
 31
0.0
  0
SPLINE
  5
189
100
AcDbEntity
  8
Layer_1
 62
7
100
AcDbSpline
 70
8
 71
3
 72
8
 73
4
 74
0
 40
0
 40
0
 40
0
 40
0
 40
1
 40
1
 40
1
 40
1
 10
27.624320
 20
279.586380
 30
0.0
 10
27.024585
 20
279.586380
 30
0.0
 10
26.476604
 20
280.038032
 30
0.0
 10
26.476604
 20
280.985799
 30
0.0
  0
SPLINE
  5
18a
100
AcDbEntity
  8
Layer_1
 62
7
100
AcDbSpline
 70
8
 71
3
 72
8
 73
4
 74
0
 40
0
 40
0
 40
0
 40
0
 40
1
 40
1
 40
1
 40
1
 10
26.476604
 20
280.985799
 30
0.0
 10
26.476604
 20
282.192710
 30
0.0
 10
27.120801
 20
283.044224
 30
0.0
 10
28.038952
 20
283.044224
 30
0.0
  0
SPLINE
  5
18b
100
AcDbEntity
  8
Layer_1
 62
7
100
AcDbSpline
 70
8
 71
3
 72
8
 73
4
 74
0
 40
0
 40
0
 40
0
 40
0
 40
1
 40
1
 40
1
 40
1
 10
28.038952
 20
283.044224
 30
0.0
 10
28.757190
 20
283.044224
 30
0.0
 10
29.208843
 20
282.503684
 30
0.0
 10
29.208843
 20
281.652209
 30
0.0
  0
SPLINE
  5
18c
100
AcDbEntity
  8
Layer_1
 62
7
100
AcDbSpline
 70
8
 71
3
 72
8
 73
4
 74
0
 40
0
 40
0
 40
0
 40
0
 40
1
 40
1
 40
1
 40
1
 10
29.208843
 20
281.652209
 30
0.0
 10
29.208843
 20
280.312023
 30
0.0
 10
28.401754
 20
279.586380
 30
0.0
 10
27.624320
 20
279.586380
 30
0.0
  0
LINE
  5
18d
100
AcDbEntity
  8
Layer_1
 62
7
100
AcDbLine
 10
30.223923
 20
282.429643
 30
0.0
 11
30.238731
 21
282.414835
 31
0.0
  0
SPLINE
  5
18e
100
AcDbEntity
  8
Layer_1
 62
7
100
AcDbSpline
 70
8
 71
3
 72
8
 73
4
 74
0
 40
0
 40
0
 40
0
 40
0
 40
1
 40
1
 40
1
 40
1
 10
30.238731
 20
282.414835
 30
0.0
 10
30.579322
 20
282.755425
 30
0.0
 10
31.001357
 20
283.044224
 30
0.0
 10
31.504876
 20
283.044224
 30
0.0
  0
SPLINE
  5
18f
100
AcDbEntity
  8
Layer_1
 62
7
100
AcDbSpline
 70
8
 71
3
 72
8
 73
4
 74
0
 40
0
 40
0
 40
0
 40
0
 40
1
 40
1
 40
1
 40
1
 10
31.504876
 20
283.044224
 30
0.0
 10
32.060186
 20
283.044224
 30
0.0
 10
32.408218
 20
282.533301
 30
0.0
 10
32.326773
 20
281.933528
 30
0.0
  0
LINE
  5
190
100
AcDbEntity
  8
Layer_1
 62
7
100
AcDbLine
 10
32.326773
 20
281.933528
 30
0.0
 11
32.008357
 21
279.653017
 31
0.0
  0
LINE
  5
191
100
AcDbEntity
  8
Layer_1
 62
7
100
AcDbLine
 10
32.008357
 20
279.653017
 30
0.0
 11
31.682575
 21
279.653017
 31
0.0
  0
LINE
  5
192
100
AcDbEntity
  8
Layer_1
 62
7
100
AcDbLine
 10
31.682575
 20
279.653017
 30
0.0
 11
31.993586
 21
281.889141
 31
0.0
  0
SPLINE
  5
193
100
AcDbEntity
  8
Layer_1
 62
7
100
AcDbSpline
 70
8
 71
3
 72
8
 73
4
 74
0
 40
0
 40
0
 40
0
 40
0
 40
1
 40
1
 40
1
 40
1
 10
31.993586
 20
281.889141
 30
0.0
 10
32.075032
 20
282.474105
 30
0.0
 10
31.801004
 20
282.740616
 30
0.0
 10
31.415989
 20
282.740616
 30
0.0
  0
SPLINE
  5
194
100
AcDbEntity
  8
Layer_1
 62
7
100
AcDbSpline
 70
8
 71
3
 72
8
 73
4
 74
0
 40
0
 40
0
 40
0
 40
0
 40
1
 40
1
 40
1
 40
1
 10
31.415989
 20
282.740616
 30
0.0
 10
31.008761
 20
282.740616
 30
0.0
 10
30.631151
 20
282.496280
 30
0.0
 10
30.164652
 20
282.015011
 30
0.0
  0
LINE
  5
195
100
AcDbEntity
  8
Layer_1
 62
7
100
AcDbLine
 10
30.164652
 20
282.015011
 30
0.0
 11
29.831466
 21
279.653017
 31
0.0
  0
LINE
  5
196
100
AcDbEntity
  8
Layer_1
 62
7
100
AcDbLine
 10
29.831466
 20
279.653017
 30
0.0
 11
29.505684
 21
279.653017
 31
0.0
  0
LINE
  5
197
100
AcDbEntity
  8
Layer_1
 62
7
100
AcDbLine
 10
29.505684
 20
279.653017
 30
0.0
 11
29.972145
 21
282.977549
 31
0.0
  0
LINE
  5
198
100
AcDbEntity
  8
Layer_1
 62
7
100
AcDbLine
 10
29.972145
 20
282.977549
 30
0.0
 11
30.297927
 21
282.977549
 31
0.0
  0
LINE
  5
199
100
AcDbEntity
  8
Layer_1
 62
7
100
AcDbLine
 10
30.297927
 20
282.977549
 30
0.0
 11
30.223923
 21
282.429643
 31
0.0
  0
SPLINE
  5
19a
100
AcDbEntity
  8
Layer_1
 62
7
100
AcDbSpline
 70
8
 71
3
 72
8
 73
4
 74
0
 40
0
 40
0
 40
0
 40
0
 40
1
 40
1
 40
1
 40
1
 10
35.375697
 20
282.755425
 30
0.0
 10
35.257194
 20
282.785041
 30
0.0
 10
35.123957
 20
282.799849
 30
0.0
 10
34.968470
 20
282.799849
 30
0.0
  0
SPLINE
  5
19b
100
AcDbEntity
  8
Layer_1
 62
7
100
AcDbSpline
 70
8
 71
3
 72
8
 73
4
 74
0
 40
0
 40
0
 40
0
 40
0
 40
1
 40
1
 40
1
 40
1
 10
34.968470
 20
282.799849
 30
0.0
 10
33.954066
 20
282.799849
 30
0.0
 10
33.035916
 20
282.029782
 30
0.0
 10
33.035916
 20
280.874737
 30
0.0
  0
SPLINE
  5
19c
100
AcDbEntity
  8
Layer_1
 62
7
100
AcDbSpline
 70
8
 71
3
 72
8
 73
4
 74
0
 40
0
 40
0
 40
0
 40
0
 40
1
 40
1
 40
1
 40
1
 10
33.035916
 20
280.874737
 30
0.0
 10
33.035916
 20
280.260156
 30
0.0
 10
33.376506
 20
279.860333
 30
0.0
 10
33.902237
 20
279.860333
 30
0.0
  0
SPLINE
  5
19d
100
AcDbEntity
  8
Layer_1
 62
7
100
AcDbSpline
 70
8
 71
3
 72
8
 73
4
 74
0
 40
0
 40
0
 40
0
 40
0
 40
1
 40
1
 40
1
 40
1
 10
33.902237
 20
279.860333
 30
0.0
 10
34.309464
 20
279.860333
 30
0.0
 10
34.664900
 20
280.060245
 30
0.0
 10
35.042511
 20
280.423085
 30
0.0
  0
LINE
  5
19e
100
AcDbEntity
  8
Layer_1
 62
7
100
AcDbLine
 10
35.042511
 20
280.423085
 30
0.0
 11
35.375697
 21
282.755425
 31
0.0
  0
LINE
  5
19f
100
AcDbEntity
  8
Layer_1
 62
7
100
AcDbLine
 10
35.375697
 20
282.755425
 30
0.0
 11
35.375697
 21
282.755425
 31
0.0
  0
LINE
  5
1a0
100
AcDbEntity
  8
Layer_1
 62
7
100
AcDbLine
 10
35.264635
 20
279.653017
 30
0.0
 11
34.938853
 21
279.653017
 31
0.0
  0
LINE
  5
1a1
100
AcDbEntity
  8
Layer_1
 62
7
100
AcDbLine
 10
34.938853
 20
279.653017
 30
0.0
 11
34.990682
 21
280.045436
 31
0.0
  0
SPLINE
  5
1a2
100
AcDbEntity
  8
Layer_1
 62
7
100
AcDbSpline
 70
8
 71
3
 72
8
 73
4
 74
0
 40
0
 40
0
 40
0
 40
0
 40
1
 40
1
 40
1
 40
1
 10
34.990682
 20
280.045436
 30
0.0
 10
34.701884
 20
279.786292
 30
0.0
 10
34.265040
 20
279.586380
 30
0.0
 10
33.850408
 20
279.586380
 30
0.0
  0
SPLINE
  5
1a3
100
AcDbEntity
  8
Layer_1
 62
7
100
AcDbSpline
 70
8
 71
3
 72
8
 73
4
 74
0
 40
0
 40
0
 40
0
 40
0
 40
1
 40
1
 40
1
 40
1
 10
33.850408
 20
279.586380
 30
0.0
 10
33.176594
 20
279.586380
 30
0.0
 10
32.687884
 20
280.149094
 30
0.0
 10
32.687884
 20
280.919162
 30
0.0
  0
SPLINE
  5
1a4
100
AcDbEntity
  8
Layer_1
 62
7
100
AcDbSpline
 70
8
 71
3
 72
8
 73
4
 74
0
 40
0
 40
0
 40
0
 40
0
 40
1
 40
1
 40
1
 40
1
 10
32.687884
 20
280.919162
 30
0.0
 10
32.687884
 20
281.955778
 30
0.0
 10
33.502376
 20
283.044224
 30
0.0
 10
35.049915
 20
283.044224
 30
0.0
  0
SPLINE
  5
1a5
100
AcDbEntity
  8
Layer_1
 62
7
100
AcDbSpline
 70
8
 71
3
 72
8
 73
4
 74
0
 40
0
 40
0
 40
0
 40
0
 40
1
 40
1
 40
1
 40
1
 10
35.049915
 20
283.044224
 30
0.0
 10
35.301656
 20
283.044224
 30
0.0
 10
35.575609
 20
283.014607
 30
0.0
 10
35.731096
 20
282.977549
 30
0.0
  0
LINE
  5
1a6
100
AcDbEntity
  8
Layer_1
 62
7
100
AcDbLine
 10
35.731096
 20
282.977549
 30
0.0
 11
35.264635
 21
279.653017
 31
0.0
  0
ENDSEC
  0
SECTION
  2
OBJECTS
  0
DICTIONARY
  5
C
330
0
100
AcDbDictionary
  3
ACAD_GROUP
350
D
  3
ACAD_MLINESTYLE
350
17
  0
DICTIONARY
  5
D
330
C
100
AcDbDictionary
  0
DICTIONARY
  5
1A
330
C
100
AcDbDictionary
  0
DICTIONARY
  5
17
330
C
100
AcDbDictionary
  3
STANDARD
350
18
  0
DICTIONARY
  5
19
330
C
100
AcDbDictionary
  0
ENDSEC
  0
EOF
